Senore Matze Rossi Ich Fange Feuer Chords Capo 5
Dadd9add11

(Basic C shape moved up two frets)

e|---0---|
B|---3---|
G|---0---|
D|---4---|
A|---5---|
E|---x---|

G5/F#

e|---3---|
B|---3---|
G|---0---|
D|---0---|
A|---x---|
E|---2---|



[Intro]

e|----------------3----0------------------3----0----|
B|-----------0h3----------3----------0h3----------2-|
G|--------------------------------------------------|
D|---------0-----------------------0----------------|
A|-------2-----------------------2------------------|
E|---3----------3----3-------3----------3----3------|


e|--------------------------------------------------|
B|-------0--------3----0-------------0----5----0----|
G|---------2--------------0--------0--------------0-|
D|-----------0-------------------4------------------|
A|---3----------3----3--------5---------5----5------|
E|--------------------------------------------------|

e|----------------3----0------------------3----0----|
B|-----------0h3----------3----------0h3----------2-|
G|--------------------------------------------------|
D|---------0-----------------------0----------------|
A|-------2-----------------------2------------------|
E|---3----------3----3-------3----------3----3------|


e|--------------------------------------------------|
B|-------0--------3----0-------------0----5---------|
G|---------2--------------0--------0----------------|
D|-----------0-------------------4------------------|
A|---3----------3----3-------/5---------5-----------|
E|--------------------------------------------------|


[Verse]

          G
Ich bin gemacht aus blauem Himmel
C
und aus hartem Stein
       Dadd9add11
und genauso auch aus Feuer
            Em         D
so lang ich lebe werde ich so sein
G                        C
Ich kann dich wärmen und gleichzeitig verbrennen
       Dadd9add11
Die Elemente zu beherrschen
Em                 D
muss ich erst noch lernen

    G           C                         Dadd9add11
Und glaube mir, nichts passiert hier ohne Grund
    Em          D
und alles macht Sinn
      G           C                         Dadd9add11
Bitte glaube mir, nichts passiert hier ohne Grund
    Em          D
und alles macht Sinn

[Chorus]

C            G   G5/F#     C
Und ich fang Feuer und ich brenn
C             G   G5/F#     C
Hey du fängst Feuer und du brennst
C             G   G5/F#        Em
Ja wir fangen Feuer und alles brennt
       D
Es ist heiß und hell

[Interlude]

e|----------------3----0------------------3----0----|
B|-----------0h3----------3----------0h3----------2-|
G|--------------------------------------------------|
D|---------0-----------------------0----------------|
A|-------2-----------------------2------------------|
E|---3----------3----3-------3----------3----3------|


e|--------------------------------------------------|
B|-------0--------3----0-------------0----5----0----|
G|---------2--------------0--------0--------------0-|
D|-----------0-------------------4------------------|
A|---3----------3----3--------5---------5----5------|
E|--------------------------------------------------|

e|----------------3----0------------------3----0----|
B|-----------0h3----------3----------0h3----------2-|
G|--------------------------------------------------|
D|---------0-----------------------0----------------|
A|-------2-----------------------2------------------|
E|---3----------3----3-------3----------3----3------|


e|--------------------------------------------------|
B|-------0--------3----0-------------0----5---------|
G|---------2--------------0--------0----------------|
D|-----------0-------------------4------------------|
A|---3----------3----3-------/5---------5-----------|
E|--------------------------------------------------|

[Verse]

          G
Und deine Augen sind wie Fenster
         C
grad seh ich mein Spiegelbild
        Dadd9add11
Doch je länger du den Blick erwiderst
        Em              D
erkenne ich, was sich dahinter abspielt
   G
Du musst dich nicht erklären
         C
ich kann dich ganz gut verstehen
        Dadd9add11
Deine Gedanken sind so laut
    Em               D
und klingen so wunderschön

    G                          C
Und alle denken, ich hab deine Liebe nicht verdient
                     Dadd9add11
doch ich streng mich an,
Em              D
wie ein kleines Kind
   G                              C
Ja vielleicht hab ich deine Liebe wirklich nicht verdient
                     Dadd9add11
doch ich streng mich an,
Em              D
wie ein kleines Kind

[Chorus]

C            G   G5/F#     C
Und ich fang Feuer und ich brenn
C            G   G5/F#     C
Hey du fängst Feuer und du brennst
C            G   G5/F#        Em
Ja wir fangen Feuer und alles brennt
       D
Es ist heiß und hell

[Outro]


e|----------------3----0------------------3----0----|
B|-----------0h3----------3----------0h3----------2-|
G|--------------------------------------------------|
D|---------0-----------------------0----------------|
A|-------2-----------------------2------------------|
E|---3----------3----3-------3----------3----3------|


e|--------------------------------------------------|
B|-------0--------3----0-------------0----5----0----|
G|---------2--------------0--------0--------------0-|
D|-----------0-------------------4------------------|
A|---3----------3----3-------/5---------5----5------|
E|--------------------------------------------------|

e|----------------3----0------------------3----0----|
B|-----------0h3----------3----------0h3----------2-|
G|--------------------------------------------------|
D|---------0-----------------------0----------------|
A|-------2-----------------------2------------------|
E|---3----------3----3-------3----------3----3------|


e|--------------------------------------------------|
B|-------0--------3----0-------------0----5---------|
G|---------2--------------0--------0--------0---0-0-|
D|-----------0-------------------4------------4-----|
A|---3----------3----3-------/5---------5---------5-|
E|--------------------------------------------------|


************************************

| h   Hammer-on
| /   Slide up


************************************
Video youtube Source chordstv